AccueilS'enregistrerConnexion

Partagez | 
 

 Les tablatures de Sheer Heart Attack

Voir le sujet précédent Voir le sujet suivant Aller en bas 
AuteurMessage
simbaud
Administrateur de Queenland


Messages : 2695
Date d'inscription : 08/06/2013
Age : 21
Localisation : Queenland (rires)

MessageSujet: Les tablatures de Sheer Heart Attack   Dim 9 Mar - 13:50


Brighton Rock


9"
|--------------------|
|--------------------|
|-17-----------------|
|-17-----------------|
|-17-----------------|
|-15-x-x-x-x-x-x...--|

14"
|-------------------------------------|-------------------------------------|
|-------------------------------------|-------------------------------------|
|---18----18--x-18--x-18----18----18--|-x-18----18--x-18--x-18--x-18--x-18--|
|---18----18--x-18--x-18----18----18--|-x-18----18--x-18--x-18--x-18--x-18--|
|---18----18--x-18--x-18----18----18--|-x-18----18--x-18--x-18--x-18--x-18--|
|---16----16--x-16--x-16----16----16--|-x-16----16--x-16--x-16--x-16--x-16--|

|---------------------------------------------------------------------------|
|---------------------------------------------------------------------------|
|-x-18--x-18--x-18--x-18--x-18--x-18-----------18---------------------------|
|-x-18--x-18--x-18--x-18--x-18--x-18-----------18---------------------------|
|-x-18--x-18--x-18--x-18--x-18--x-18-----------18---------------------------|
|-x-16--x-16--x-16--x-16--x-16--x-16-x-x-...-x-16-x-........slide down to 1-|

|----------------------------------------|
|-----------------9------------11--9-11--|
|----------------10------------11--9-11--|
|-----11-11-11---11---x-x-11---11--9-11--|
|-x-x-11-11-11---11---x-x--9----9--9--9--|
|sl.up-9--9--9----9---x-x----------------|

|------------------------------------|
|------------------9---9-11-11-9-11--|
|-----------------10---9-11-11-9-11--|
|-11-9------------11---9-11-11-9-11--|
|--9-9-11-11-11---11---9--9--9-9--9--|
|--9-9--9--9--9----9-----------------|

|-----------------------------------------|
|-----------------9----9-11-11-x-11-11-11-|
|----------------10----9-11-11-x-11-11-11-|
|-x-x------------11----9-11-11-x-11-11-11-|
|-x-x-11-11-11---11----9--9--9-x--9--9--9-|
|-x-x--9--9--9----9-----------------------|

B E B E B E F#
B E B E B E F#

|-----------------------------------|
|-----------------------------------|
|--------9---9---6-------6\-4-9--\/-|
|------7-9---6---6---6---6\-4-9--\/-|
|------7-7---6---4---3---4\-2-7--\/-|
|-5----5-0--------------------0-----|

C# F# C# F#
B E B E B E F#
B E B E B E F#

|------------------????????------------|
|-----------------(7b9--7b9)-----------|
|---------9---9\6------------6\-4--9-\-|
|---------9---6-6------------6\-4--9-\-|
|---------7---6-4------------4\-2--7-\-|
|-5-----5-0------------------------0---|

|----------0-----------------------------------2----22--|
|----------0------2-----2--0--2--0--------5----2----22--|
|-6---6-4--1------2-----2--1--2--1--------6----3----334-|
|-6---6-4--2------2-----2--2--2--2--2-----6----4----444-|
|-4---4-2--2------0-----------0--2--2-----4----4------2-|
|----------0------------------------0----------2--------|

|----------------------------|----------------------|----|
|--4--4--4--4--4--4--4--4--2-|--2--2--2--2--2--2-0--|----|
|--4--4--4--4--4--4--4--4--2-|--2--2--2--2--2--2-1--|-0/-|
|--4--4--4--4--4--4--4--4--2-|--2--2--2--2--2--2-2--|-/0-|
|--2--2--2--2--2--2--2--2--0-|--0--0--0--0--0--0-2--|----|
|----------------------------|-------------------0--|----|

|------------------------------|
|--2--2--2--2--2--2--2--2-3----|
|--2--2--2--2--2--2--2--2-4----|
|--2--2--2--2--2--2--2--2-5----|
|--0--0--0--0--0--0--0--0-5----|
|-------------------------3----|

|-----------------------------------------------------|
|---------------------------------------3-0---2---0---|
|-2b4-r2p0h2p0h2p0----------------0-2---2-1---2---1---|
|-----------------2p0-------------0-2-----2---2---2---|
|--------------------2p0----------0-0-----2---0---2---|
|-----------------------3b---0------------0---0---0---|

|---------12---------------------------------------------|
|-15b17------15p12-15---12----12-------------------12b---|
|--------------------------15----15p14p12-14p12----12b---|
|-----------------------------------------------14-------|
|--------------------------------------------------------|
|--------------------------------------------------------|

|-----------------------------------------------------|
|-----------------------------------------------------|
|----------12b--------------------------------7---7---|
|-14p12----12b-------------------------6------5---5---|
|-------14-------14-13--12--11---------7------7---7---|
|------------------------------12--000-0----0---------|

|-------12----------------------------------------------|
|-15b17----15-12-17r15p12----12-------------------12b---|
|-------------------------15----15p14p12-14p12----12b---|
|----------------------------------------------14-------|
|-------------------------------------------------------|
|-------------------------------------------------------|

|---------------------------------------------------12tr------------|
|-----------------------------------8---10-8--8-----12vv------0-----|
|----------12b----------------------9---10-8--9---------------0-----|
|-14-12----12b---------------------10--------10---------------0-----|
|-------14-----14-13--12--10-------10--------10---------------0-----|
|----------------------------12\----8---------8---------------------|

|-----------------------------------------------------------|
|-----------------------------------------------------------|
|-2b4---4r2--0h2p0-------------------------9-------7---7\4/-|
|------------------2-0---------------------9---5-7-7---7\4/-|
|----------------------2-1-0---------------7---5-7-7---7\4/-|
|----------------------------3-0----0--0-------5-5-5--------|

|----------------------------------------------------------|
|----------------------------------------------------------|
|----------------------------------------------------------|
|----------------------------------------------------------|
|-7-7-7-x-5-5-5-x--4-4-4-4-3-3-3-3-2-2-2-2-1-1-1-1-0-0-0-0-|
|----------------------------------------------------------|

echo on
v
|---------|----------------------|------|---------------------------|
|---------|--2--2--2--2--2--2-0--|------|--2--2--2--2--2--2--2--2-3-|
|---------|--2--2--2--2--2--2-1--|--0/--|--2--2--2--2--2--2--2--2-4-|
|---------|--2--2--2--2--2--2-2--|--/0--|--2--2--2--2--2--2--2--2-5-|
|---------|--0--0--0--0--0--0-2--|------|--0--0--0--0--0--0--0--0-5-|
|-3--000--|-------------------0--|------|-------------------------3-|


E-|-0--trem down to F# - release -|

|----------|---------|---------|---------|---------|
|----------|---------|---------|---------|---------|
|----------|---------|---------|---------|---------|
|----------|---------|---------|---------|---------|
|----------|---------|---------|---------|---------|
|-h2-2-2-2-|-2-2-2-2-|-2-2-2-2-|-2-2-2-2-|-2-2-2-2-|

|-------------------------------------------------------------------|
|-------------------------------------------------------------------|
|-----------2-------------2-------------2-------------2-------------|
|-4-----2-4---2---4-------2-----4-------2-----4-------2-----4-------|
|-------------------------------------------------------------------|
|---2-2---------2---2-2-2---2-2---2-2-2---2-2---2-2-2---2-2---2-2-2-|


|---------|---------|-------------------|
|---------|---------|-___---------------|
|---------|---------|-5r4p2-------------|
|---------|---------|-------4---2---2-4-|
|---------|---------|---------4---4-----|
|-2-2-2-2-|-2-2-2-2-|-------------------|

|---------|---------|-___---------|---------|
|---------|---------|-5p2---___---|---------|
|---------|---------|-----4-2b3---|---------|
|---------|---------|-----------4-|---------|
|---------|---------|-------------|---------|
|-2-2-2-2-|-2-2-222-|-------------|---------|

|---------|---------|-___------------------|
|---------|---------|-5p2---___------------|
|---------|---------|-----4-2b3---___------|
|---------|---------|-----------4-4p2--2-4-|
|---------|---------|----------------4-----|
|22-222---|---------|----------------------|

|---------|-----------------------------|------|
|---------|-___-------------------------|------|
|---------|-4p2---2-___-----------------|------|
|---------|-----4---4p2---------4---4---|------|
|---------|-------------4-3-2-0---------|------|
|-2-------|-----------------------2---2-|------|

|--____---------|-___-------|-___-------|-----------|
|--10p9---------|-5p4-------|-1p0-------|-___-------|
(11)----11-11---|-----6-6---|-----2-2---|-4p2-------|
|---------------|-----------|-----------|-----4-4---|
|---------------|-----------|-----------|-----------|
|---------------|-----------|-----------|-----------|

|-----------|-----------|-----------------|
|-----------|-----------|-----------------|
|-___-------|-----------|-----------------|
|-4p2-------|-___-------|---------4---4---|
|-----4-4---|-4p2-------|-----------------|
|-----------|-----4-5---|-5-4-2-2---------|


|-----------------------2-4-5-4-2-------------------------|
|-------------------2-5-----------5-2-----___-------------|
|-------------1-2-4-------------------5-4-2b3-------------|
|---------2-4---------------------------------4-2---------|
|-4-0-2-4-----------------------------------------4-3-2-0-|
|---------------------------------------------------------|


|---------|---------|-------------------------------------4-----5-----|
|---------|---------|-------------2-----4-----5-----7-----------------|
|---------|---------|-2-----4-----------------------------------------|
|---------|---------|---------------------4-4---4-4---4-4---4-4---4-4-|
|---------|---------|-------------------------------------------------|
|-2-2-2-2-|-22222-2-|---2-2---2-2---2-2-------------------------------|

|-4-------------------------------------------------------------|
|-------7-----5-----4-----2-------------------------------------|
|----------------------------*-*--4-----2-----1-----------------|
|---4-4---4-4---4-4---4-4-----------4-*---2-4-------4-----2-----|
|---------------------------------------------------------------|
|-----------------------------------------------*-2---2-2---2-2-|

|-----------------------------------------|
|-----------------------------------------|
|-----------------------------------------|
|-------------------------4---4-4-4-4-4-4-|
|-4-----2-----------------4---4-4-4-4-4-4-|
|---2-2---2-2-5-0-0-4-0-0-2---2-2-2-2-2-2-|

|-------|---------|-----------|-----------|---------|---------|---------|
|-------|---------|-----------|-___-------|-2-------|---------|---------|
|-------|---------|-___-------|-4p2-------|---4-2-0-|---------|---------|
|-2-----|-2-------|-4p2-------|-----4-2-0-|---------|-4-2-----|---------|
|-------|---4-2-0-|-----4-2-0-|-----------|---------|-----4-2-|-4-2-0---|
|-------|---------|-----------|-----------|---------|---------|-------3-|

fade in fade out volume control
|-----------2-----------------2----------------2--|
|-----------3-----------------3----------------3--|
|-----------2-----------------2----------------2--|
|-----------0-----------------0--------4-------0--|
|-----------0--------4--------0--------4----------|
|-2------------------2-----------------2----------|


5'45"
fade in
|-------7-------------------|-----------------------------------------|
|-------10------10----------|-----------------------------------------|
|-------7-----------7-------|-----------------------------------------|
|-------7--------------7----|-----------------------------------------|
|-------7-------------------|-7-------7-------7-------7-------7-------|
|-0-------------------------|-----0-------0-------0-------0-------0---|

|--------------------------------|-------|-------|
|--------------------------------|-------|-------|
|---------9-------9-------9------|-------|-------|
|-------9-----9-------9-------9--|-------|-------|
|-7------------------------------|-------|-------|
|-----0--------------------------|-------|-------|

|-----------------7---------------------------------------------------------|
|---------------------*-10-8---7--------------------------------------------|
|----------------------------------9---7----------------9---7-------7---9---|
|---------7---*----------------------------9-7------------------7h9---9-----|
|-----7----------------------------------------10-9-7-----------------------|
|-0-------------------------------------------------------------------------|

|---------7------------------------------------------------------------------|
|-------------*-10-8---7-----------------------------------------------------|
|--------------------------*--------------------9---7---*---7----------------|
|-9---*------------------------7---9-7--------9---9-------9---9-7------------|
|--------------------------------------10-9-7---------------------10-7---*---|
|----------------------------------------------------------------------------|

|---------------------7-10/12-12---*---*---12-14-15-14-12----|
|--------------7-8-10-------------------------------------15-|
|----------7-9-----------------------------------------------|
|------7-9---------------------------------------------------|
|-7-10-------------------------------------------------------|
|------------------------------------------------------------|

|------------------------------------------------------------------------|
|-12---------------------------------------------------------------------|
|------14---12---11------------------------------------------------------|
|---------------------14---12-14-----------------------------------------|
|--------------------------------14---12-14-10---9---7---5---7---*---*---|
|------------------------------------------------------------------------|

|----------------------------------------------------------12---12---*---*---|
|-----------------------------------------------------12---------------------|
|----------------------------9---9v---9/11-13---13/14------------------------|
|----/-----------9---9---9---------------------------------------------------|
|-7-9-11---11/12-------------------------------------------------------------|
|----------------------------------------------------------------------------|

|-16r14p12---12p11--------------------------------------------------------|
|------------------14---14p12---------------------------------------------|
|-----------------------------14---14--1311---*---9---8---6---4---2---0---|
|-------------------------------------------------------------------------|
|-------------------------------------------------------------------------|
|-------------------------------------------------------------------------|

|---------------------------|---------|----|
|---------------------------|---------|----|
|---------------------------|---------|-0/-|
|--x--x--x------------------|---------|-/0-|
|-----------x--2--0---------|---------|----|
|--------------------3--2-x-|-0-0-0-0-| 4X |

|---------------------|---------|---------|-----------------------------------|
|---------------------|---------|---------|-----------------------------------|
|---------------------|---------|---------|-----------------------------------|
|-------------5-------|---------|---------|-------------5-------------5-------|
|---------5-7---7-----|---------|---------|---------5-7---7-7-7-7-7-7---7-7-7-|
|-0-3-5-7---------0-0-|-0-0-0-0-|-0-0-0-0-|-003-5-7---------------------------|

|------------------------------------------------------------|
|------------------------------------------------------------|
|---------------5--------------------------------------------|
|---5-----5-----5-----5-----------12----12-14-14-14-14-14-14-|
|-7---7-7---7-7---7-7---7-7-12/14----14----------------------|
|------------------------------------------------------------|

|-----------------|-----------------|----|-----------------|----|
|-----------------|-----------------|----|-----------------|----|
|-12-13-----------|-12--------------|-0/-|-12-13-----------|-0/-|
|-------12---14---|----14-12---14---|-/0-|-------12---14---|-/0-|
|-----------------|-----------------|----|-----------------|----|
|-----------------|-----------------|----|-----------------| 2X |

|----------------|----|-------------------------12-14-15-14-12----12----------|
|----------------|----|-------------------12-15----------------15----15-12----|
|-12-------------|-0/-|-------------12-14----------------------------------14-|
|----14-12--14---|-/0-|-12-14-12-14-------------------------------------------|
|----------------|----|-------------------------------------------------------|
|----------------| 2X |-------------------------------------------------------|

|-----------------------------------------------------------------|
|-----------------------------------------------------------------|
|-12-14-12-11-12-11-----------------------------------------------|
|-------------------14-12-14-12-----------------------------------|
|-------------------------------14-12-10-9-10-9-7-5-7-5-5-7-7-5-5-|
|-----------------------------------------------------------------|

|-------------------------------------------------------------------------|
|---------------------9-------9-------9-------9-------9-------9-------9---|
|-------------9-------9-------9-------9-------9-------9-------9-------9---|
|-----9-------9-------9-------9-------9-------9-------9-------9-------9---|
|-7-7-7-7-7-7-7-7-7-7-7-7-7-7-7-7-7-7-7-7-7-7-7-------7-------7-------7---|
|-------------------------------------------------------------------------|

|-------------------------------------|------------------------------------|
|-9-----------------------------------|---------------------------------9--|
|-9-------7-------7-------7-------7---|-----------------------------9------|
|-9-------7-------7-------7-------7---|------------------6-\4/--9----------|
|-7-------7-------7-------7-------7---|--------------7---------------------|
|---------5-------5-------5-------5---|-0---0---/7-------------------------|

|---------------14b16---14-12----------------------------------------------|
|-12---15b17v-------------------14-12--------------------------------------|
|---------------------------------------14-13---11-9-----------------------|
|------------------------------------------------------11-9----------------|
|-------------------------------------------------------------12-11---9-7--|
|--------------------------------------------------------------------------|

|-------------|--------------------------------------------------------------|
|-------------|-----------------------------------------------------12-12----|
|---------4---|--------------------------------------------12-------------12-|
|---------5---|---------------------5---5-5/9-9-9-12-12-12----12-12----------|
|---------5---|---------------5-5-5---5--------------------------------------|
|-9-7---5-3---|-3-3-3-3/7-7-7------------------------------------------------|

|----------------------------12----------------------------|
|-15-12-12-15-12-15-12-15-15----15-13-12-------------------|
|----------------------------------------14-12----12-------|
|----------------------------------------------14----14-12-|
|----------------------------------------------------------|
|----------------------------------------------------------|

|-----------------------------------------------------------------|
|-----------------------------------------------------------------|
|-----------------------------------------------------------------|
|-----------------------------------------------------------------|
|-15-14-15-14-12-10-12-10----10-----------------------------------|
|-------------------------12----12-10-12-10-8-10-8-7-8-7-5-7-5--3-|

|------------------------------------------|
|----------------------------------------0-|
|-------------4---4---4---4---4---4------0-|
|---------5---5---5---5---5---5---5------0-|
|-5---5---5---5---5---5---5---5---5--------|
|-3---3---3---3---3---3---3---3---3--------|
_____ ________
|-17b18---18r17p15_____---_____------|-17b18---rp15-------------|----|
|-----------------17b18---17p15------|-------------b18--rp15----|----|
|-------------------------------17---|----------------------17--|-0/-|
|------------------------------------|--------------------------|-/0-|
|------------------------------------|--------------------------|----|
|------------------------------------|--------------------------|----|

|----------------------------------------------------------------------|
|----------------------------------------------------------------------|
|-15---14-12---10------------------------------------------------------|
|-----------------12---10-8---7-5-------------------------------3------|
|-----------------------------------8-6---5-3-------------------3------|
|-----------------------------------------------6-5---3-1---3---1------|

8'43"
|-----------------||-----------------||------------------------------------|
|-----------------||-----------------||------------------------------------|
|-----------------||-----------------||------------------------------------|
|---------9-----7-||---------9-----7-||---------9-----7---7------------9---|
|-----------------||-----------------||--------------------7h9-7-----------|
|-x-7---7-----7---||-7-7---7-----7---||-5-7---7-----7------------7---7-----|

|---------_____---_____----------------------------------------*-10B12---10---|
|-------*-10b12---10b12v------------------------------------------------------|
|-----------------------------------------------------------------------------|
|---7------------------------9---9-7---7-------------9------------------------|
|----------------------------------------7h9-9--------------------------------|
|-7--------------------------------------------7---7-----7-*------------------|

|-------------------------------------------------------------------|
|-7---7-------------------------------------------------------------|
|-------9---9-7---7-------------------------------------------------|
|-------------------9---9-7---7-------------------------------------|
|-------------------------------9---9-7---7-------------------------|
|-------------------------------------------10---10-9---9-7---7-5---|

|--------------------------------------------------------|
|--------------------------------------------------------|
|--------------------------------------------------------|
|---------9-----7---7-------------9-----7---------7------|
|---------------------7h9-9-------------------7h9--------|
|-5-7---7-----7-------------7---7-----7-----7---------7--|

|------------|-----|------------------------7---7---7---7---7---7---7---7--|
|------------|-----|------------------------7-9-7---7-9-7---7-9-7---7-9-7--|
|------------|-0/--|--------9-------9-------8-9-8---8-9-8---8-9-8---8-9-8--|
|---9-----7--|-/0--|---9----9-------9-------9-9-9---9-9-9---9-9-9---9-9-9--|
|---9-----7--|-----|---9----9-------9-------9-9-9---9-9-9---9-9-9---9-9-9--|
|-7-----7----| 10X |-7------7-------7-------7-7-7---7-7-7---7-7-7---7-7-7--|

|-7------------------------------------------------------------|
|-7------------------------------------------------------------|
|-8-------------------7-7--------------------------------------|
|-9-------9-------7---7-7-------------------------9---9-7---9--|
|-9-------7-------5-------------------7------------------------|
|-7----------------------/7-7-7-7-7-7-----7-7-7-7--------------|

|---------------------------------------------------------10p7------------|
|---------------------------------10p7-------------------------10p7v------|
|---------9---9-7----------------------9p7v----------------------------9--|
|-----------8-------9-------------------------9---------------------------|
|-------------------------------------------------------------------------|
|-7-7---7-------------7---7-7---7-----------------7-7---7-----------------|

|-------------------------------------------------------------------|
|----------------------------------------------10p7----7------------|
|---------9p7---7-----------------------------------10-----9p7---7--|
|-------------9-----9-----7------------------------------------9----|
|---------------------9-9-----9p7-----------------------------------|
|-0-7---7-------------------------7-7---7-10------------------------|

|----------------------------------------------------------------------------|
|----------------------------------------------------------------------------|
|----------------------------------------------------------------------------|
|-9p7---7--------------------------------------------------------------------|
|-----9-----9p7--------------------------------------6-6-6-6-6-7-9-9-9-9-9-9-|
|---------------10-7-7-7-7-7-7-7-7-7-7-7-7-7-7-7-7-7-------------------------|

|---------------------------------------------------------------------|
|---------------------------------------------------------------------|
|---------------------------------------------------16-16-16-16-16-16-|
|-9-9-9-9-9-9-9/13-13-13-13-13-13-16-16-16-16-16-16-------------------|
|---------------------------------------------------------------------|
|---------------------------------------------------------------------|

with the same finger
|-------------------14-14-14-14-14---17b19_________let ring__________________|
|-16-16-16-16-16-16-----------------(17b18)---x-x-x-x-x-x-x--x-...slowing down
|----------------------------------------------------------------------------|
|----------------------------------------------------------------------------|
|----------------------------------------------------------------------------|
|----------------------------------------------------------------------------|

|---------18b19--r1816-------------14-------------12-------------10-----------|
|------------------------17-------------15-------------13-------------11------|
|-16--16----------------------16-------------14-------------12-------------10-|
|-----------------------------------------------------------------------------|
|-----------------------------------------------------------------------------|
|-----------------------------------------------------------------------------|

|-8-------------8-----------8-----------6-------------------------------------|
|-----10------------8-----------8-----------8--6------------------------------|
|----------10-----------9-----------8-------------8--7------------------------|
|-------------------------------------------------------10--8-----------------|
|--------------------------------------------------------------10--8----------|
|---------------------------------------------------------------------11--10--|

|------|-------------|-------|---------|
|------|-------------|-------|-6-------|
|------|-------------|---0/--|-7-------|
|------|-10-10-10-10-|---/0--|-8-------|
|------|-10-10-10-10-|-------|-8-------|
|-8--6-|--8--8--8--8-|4 times|-6-------|

|--------------|--8---------|-------|
|--8---8--6--6-|--8---10--8-|-------|
|--9---9--7--7-|--9---10--9-|---0/--|
|-10--10--8--8-|-10---10-10-|---/0--|
|-10--10--8--8-|------------|-------|
|--8---8--6--6-|------------|3 times|

|-----------------------------------------------------------------------|
|------------------------------------------------------------12/13-13---|
|--------------------------------------------------12---12--------------|
|-------------------------------9---10---12---14------------------------|
|--------------------10-10-10-------------------------------------------|
|-3/7-8---10/12-12------------------------------------------------------|

|-----------------------19b20--20-\-|--|------|-3-------|-------|
|-15/17-17---/20---20---------------|--|----5-|-3---5---|-----\-|
|-----------------------------------|--|--4-5-|-4---5---|-0/--\-|
|-----------------------------------|--|------|-5---5---|-/0--\-|
|-----------------------------------|--|------|---------|-------|
|-----------------------------------|--|------|---------| 3X ---|

11'02"
|-------------------------------------------|-----------------------------|
|-------------------------------------------|-----------------------------|
|-------------------------------------777999|-12-12-12-12/14-14-14-12b----|
|----------------------------555777999------|-12-12-12-12/14-14-14-----14-|
|----------------------555777---------------|-----------------------------|
|-000000...000333555777---------------------|-----------------------------|

echo off
v
|-------------------------------------------------------------|-------|-------|
|-----------14-12----14--------14--------12-12----14-12-12----|-15----|------\|
|-14-12b----14-12----14-12b----14-12b----12-12-14-14-12-12-14-|-14b16-|--0/--\|
|--------14-------14--------14--------14-------14----------14-|-------|--/0---|
|-------------------------------------------------------------|-------|-------|
|-------------------------------------------------------------|-------| 7 X |

C# F# C# C# C# F# C# F#
B E B E B E F#
B E B E B E F#

|----------|----------------------------------------------12---12-------|
|----------|----------------------------------------------12---12---12\-|
|----------|--------------------------------------------------------12\-|
|----------|--7-----9-9-7---7-9-9-9-7---7-9-9-9-7-----9-----------------|
|----------|--7-----9-9-7---7-9-9-9-7---7-9-9-9-7-----9-----------------|
|-5----7---|-7----7-7-7-7---7-7-7-7-7---7-7-7-7-7---7-------------------|

|-----------------------------------------|
|--------------------------------2--------|
|----0-----0---------------------2--------|
|-0----0h2---2p0------(0)--------2--------|
|----------------2-0h2---2-0-----0--------|
|----------------------------3-0------3b--|

|------------------------------------|-----------------------------|
|---------------------------2--------|-----------------------------|
|-----0---------------------2--------|-------0---------------------|
|-2-----2p0-----------------2--------|-(0)h2---2p0-----------------|
|-----------2-2-0---2-0-----0--------|---------------0-2---2-0-----|
|-----------------3-----3-0------3b--|-------------------------3-0-|

|--------------------------------------|
|--------------------------------3-----|
|-2b3rp0-------------------------4-----|
|--------2-0---------------------5-----|
|------------2-1-0---------------5-----|
|------------------3-0-0-0-0-0-0-0-----|
Revenir en haut Aller en bas
simbaud
Administrateur de Queenland


Messages : 2695
Date d'inscription : 08/06/2013
Age : 21
Localisation : Queenland (rires)

MessageSujet: Re: Les tablatures de Sheer Heart Attack   Dim 9 Mar - 13:52

Killer Queen

12"/left/riff A
|------------------------------------------------------|
|------------------------------------------------------|
|-8--8--7--7--\6--6--\5--5--\4--4--\3--3--3--3-\1------|
|---------------------------------------------------x--|
|------------------------------------------------1-----|
|------------------------------------------------------|

38"/left/riff B
|------------------------------------------|
|----5------6------3-------------3___\(1)--|
|----6------7------4-----------5-3___\-----|
|----7------7--7---5-----------5-3___\-----|
|--------5-------------3-----*-3-1___------|
|-5-----5-------3-----3----------------1---|

44"/middle/three guitars arranged for one
|-------------------13-10-13b15------------------|
|-------------------15-15-15b16------------------|
|----10b12-10b12----15-15-15-------10b12-10b12---|
|----12b13-12b13-------------------12b13-12b13---|
|----13----13----------------------13----13------|
|-1--1-----1-------------------------------------|


56"/left and right guitars   1'26/left
|--------------------------|--------------------------------3-----------3----------|
|-------------------left:  |------5------6-----5------6-----3----4------3----------|
|-----right---------riff A-|------6------7-----6------7-----4----5------4---5------|
|-----10b12-8-10----8------|------7------7-----7------7-----5----5------5--x---3-3-|
|booth-----------10--------|------7---5--------7---5-----------3----x--------------|
|-8------------------------|-1/5-----5------5-----5------3-----------3-------------|

1'26"/middle
|-------------------------------5--6----5-----------------3------------|
|-8b10---b10--b10v--8--6-5-----------8----6-5-----b8-r-6----4p3--------|
|--------------------------7v-----------------7-----------------5v-(0)-|
|----------------------------------------------------------------------|
|----------------------------------------------------------------------|
|----------------------------------------------------------------------|

|-3--------------------------------|
|---4-6-3-4-3----------------------|
|-------------5\2------------------|
|-----------------3-3---3-3---3-h3-|
|----------------------------------|
|----------------------------------|

1'35"/middle/three guitars
|--------------------------------------------|
|--------------------------------------------|
|-10b12-10b12---10b12-10b12---12-13-14/17----|
|-12b13-12b13---12b13-12b13---13-12-13-17b19-|
|-13----13------13----13------13-14-15/20----|
|--------------------------------------------|

solo/middle
|------------------------13---13-10h11p10-------------------------------|
|-13---13--11-13r11-----------------------13------13---13-r12--13r11----|
|-------------------12-------------------------12--------------------12-|
|-----------------------------------------------------------------------|
|-----------------------------------------------------------------------|
|-----------------------------------------------------------------------|

|--------------------------------------------------------------15-----|
|---x15---15-12-13p12-15p13-16p15-18p16-18b20---r18---16---18-----16--|
|--x------------------------------------------------------------------|
|-x-------------------------------------------------------------------|
|---------------------------------------------------------------------|
|---------------------------------------------------------------------|

middle
|---------------------------15----------------------------------------|
|-18b20____r18___-16----18-----16--20r18_p16------18---------------16-|
|--------------------------------------------16-------16\15----17-----|
|---------------------------------------------------------------------|
|---------------------------------------------------------------------|
|---------------------------------------------------------------------|
|left
|---------------------------------------------------------------------|
|-----16------15----14---------16--13-------------14------------------|
|------------15----15---------------------------------13p12--1213--15-|
|---------------------------------------------------------------------|
|---------------------------------------------------------------------|
|---------------------------------------------------------------------|
|right
|---------------------------------------------------------------------|
|---------------------------------------------------------------------|
|-------15------15----------15h17--13------------------------------12-|
|-------------------------------------------13--------13-13----13-----|
|---------------------------------------------------------------------|
|---------------------------------------------------------------------|

middle
|------------------------------18----------------------|
|-18b20---b20-r18vv-----18r20-----b20---b20---b20r21vv-|
|------------------------------------------------------|
|------------------------------------------------------|
|------------------------------------------------------|
|------------------------------------------------------|
|left
|-----------------------------14-----------------------|
|-15b16--b16-r15vv-----15b16-----16-----16----16b18vv--|
|------------------------------------------------------|
|------------------------------------------------------|
|------------------------------------------------------|
|------------------------------------------------------|
|right
|-----------------------------11-----------------------|
|-11----11---11vv----------------11-----11----13b15vv--|
|----------------------14b15---------------------------|
|------------------------------------------------------|
|------------------------------------------------------|
|------------------------------------------------------|


2'1"/right guitar: G Cm G Cm A# D# A# D# D (G F)

2'04"/three guitars/wah-wah
|------------|
|-13-11------|
|-------12---|
|-17-15-13---|
|-18-17-15---|
|------------|

2'13"/left fading to right
|----------------|-----------------|
|----------------|-----------------|
|-10-8-----------|-----------------|
|------10-8-7----|-3-1-------------|
|-------------8--|-----3-1-0-------|
|----------------|-----------1-----|

(2'17-2'25": the multitrack guitarsolo is not presented here)

2'28"/left guitar :  riff B

2'35"
|------------------------|-14b16-b16...|
|------------------------|-15b16-b16...|
|-10b12---10b12-10b12----|-14b16-b16...|
|-12b13---12b13-12b13----|-------------|
|-12b13---12b13-12b13----|-------------|
|------------------------|-------------|

 left     right
|-20r18-15---------...|
|----------20r18-16...|
|------------------...|
|------------------...|
|------------------...|
|------------------...|

_________________________________________________
[Vous devez être inscrit et connecté pour voir cette image]

I won't be a rock star , I'LL BE A LEGEEEEEEEEEEEEEEEEEEEEEEEND ! [Vous devez être inscrit et connecté pour voir cette image]
Revenir en haut Aller en bas
simbaud
Administrateur de Queenland


Messages : 2695
Date d'inscription : 08/06/2013
Age : 21
Localisation : Queenland (rires)

MessageSujet: Re: Les tablatures de Sheer Heart Attack   Dim 9 Mar - 13:55


Tenement Funster

|-----0---------0---------0---------0---------0-----------------------------|
|----0-0-------1-1-------0-0-------1-1-------0-0----------------------------|
|---0---0-----2---2-----0---0-----2---2-----0---0---------------------------|
|--2-----2---2-----2---2-----2---2-----2---2-----0--------------------------|
|-----------0-------------------0-------------------------------------------|
|-0-------------------0-------------------0---------------------------------|

|-----3---------1---------0---------3---------------------------------------|
|----0-0-------0-0-------1-1-------4-4--------------------------------------|
|---0---0-----0---0-----0---0-----3---3-------------------------------------|
|--0-----0---0-----0---2-----2---5-----5------------------------------------|
|---------------------3---------6-------------------------------------------|
|-3---------3---------------------------------------------------------------|

|-----2---------2---------2-------2-2-2-2-----------------------------------|
|----3-3-------2-2-------1-1------1-1-1-1-----------------------------------|
|---2---2-----2---2-----2---2-----2-2-2-2-----------------------------------|
|--4-----4---4-----4---4-----0----0-0-0-0-----------------------------------|
|-5---------4---------3-----------0-0-0-0-----------------------------------|
|----------------------------------------------------------------------------|

_________________________________________________
[Vous devez être inscrit et connecté pour voir cette image]

I won't be a rock star , I'LL BE A LEGEEEEEEEEEEEEEEEEEEEEEEEND ! [Vous devez être inscrit et connecté pour voir cette image]
Revenir en haut Aller en bas
simbaud
Administrateur de Queenland


Messages : 2695
Date d'inscription : 08/06/2013
Age : 21
Localisation : Queenland (rires)

MessageSujet: Re: Les tablatures de Sheer Heart Attack   Dim 9 Mar - 13:57


Flick Of The Wrist


G

|--------------------------15--------------------------------------|
|-/13v----15b__16--13v--------15b__16--13v__\----------------------|
|----------------------------------------------8r7p5---------------|
|----------------------------------------------------7p5---5h7-----|
|--------------------------------------------------------7-----0---|
|------------------------------------------------------------------|

0:20
|------------------------------|
|---------------10-------10\---|
|-9--------------9--------9\---|
|-7--------------7--------7\---|
|-0------x-x-x-x-0-------------|
|------------------------------|

0:25
|-----------------------------------------------------------------|----|
|-----------------------------------------------------------------|----|
|-----------------------------------------------------------------|-0/-|
|-1---------------2---------------4-------------------------------|-/0-|
|-----2---3---2-------2---3---2-------2---3---2---0---2h3-2---*---|----|
|-----------------------------------------------------------------|----|

0:37
|-----2-------2-------2-----------|
|-----3-------3-------3---1-------|
|-9---2---9---2---9---2---2---4---|
|-9---0---9---0---9---0---2---4---|
|-7-------7-------7-------0---2---|
|---------------------------------|

(0:51)
|---------------------------------------------|
|---------------------------------------------|
|---------------------------------------------|
|-----9\8-9-----------9__\8-------------------|
|-x-x-7\6-7-----------7__\6-9---9-9----7-9----|
|-----------0-0-0-0-0-------7-7-7-7-10-----10-|


|-----------------2---2-----2-------------------------------------|
|-----1-----------3-3-3-----3-------------------------1-----------|
|-2-------2-------2-------2-----------0-------0---0---0-------0-0-|
|-2-----------2---0---------------0-----0---0-----2-------0-------|
|-0-------------------------------2-------2-------3-------2-------|
|---------------------------------3-------------------------------|

1:02
|---------------------------------|-----------------------------------|
|---------------------------------|-----------------------------------|
|-----5-5-5-5---5-------5---___---|-----5-5-5-5-----------------___---|
|-----5-5-5-5---5-------5---7p5---|-----5-5-5-5---------------5-7p5---|
|-0-0---------------5-----------7-|-0-0-----------5---6---7---------7-|
|---------------------------------|-----------------------------------|

|------------------------------------------------------|
|------------------------------------------------------|
|-----5-5-5-5---7---5---7---7p5-----------------9-9\---|
|-----5-5-5-5---7---5---7---7p5-----------------9-9\---|
|-0-0---------0------------------3----4----5----7-7\---|
|------------------------------------------------------|

|---------------------------|
|------------10------10__\--|
|------------9--------9__\--|
|-7----------7--------7__\--|
|-0-------000-------00------|
|---------------------------|

riff(0:25)
riff(0:37)
riff(0:51)

G C G CG C G

solo (1:51)
|---------------15-18p15-18p15-18p15-18--18b20___r18-15---------|
|-18b20vv----18----18p15-18p15-18p15-----------------15-18b20---|
|---------------------------------------------------------------|
|---------------------------------------------------------------|
|---------------------------------------------------------------|
|---------------------------------------------------------------|

|-15p12-----------------------------------13b15---b15-b15---------|
|-------15p12-15p12-15---15b17v----15v----------------------------|
|-----------------------------------------------------------------|
|---------------------------------------------------------15b17---|
|-----------------------------------------------------------------|
|-----------------------------------------------------------------|

|------------------------------------------------------------------|
|------------------------------------------------------------------|
|----12----------12-14-12-14--15--b17___r15p12-14p12-14p12-14b16---|
|-15----15-12-15---------------------------------------------------|
|------------------------------------------------------------------|
|------------------------------------------------------------------|

|-------------------------------------------------------------------------|
|------_____--------------------------------------------12----12h15p12-15-|
|-b16r-14p12----------12b---14-12-14b16r14b16----b16r14----15-------------|
|------------14-12--------------------------------------------------------|
|------------------10-----------------------------------------------------|
|-------------------------------------------------------------------------|

|---------------------------------12-14-15-b17vv-----------------------|
|-15b17----b16--b17-15-b17--15-15--------------------12-15p12-15b17v---|
|----------------------------------------------------------------------|
|----------------------------------------------------------------------|
|----------------------------------------------------------------------|
|----------------------------------------------------------------------|

|-----------------------------------------------------------------------15b17_|
|-b17r__15-15b__17-15b17---15---b17rb17---15p12-15p12----12-------------------|
|-----------------------------------------------------15----15p14p12----------|
|--------------------------------------------------------------------14-------|
|-----------------------------------------------------------------------------|
|-----------------------------------------------------------------------------|


|_r15p12-15p12----12---------|
|--------------15----15b17---|
|----------------------------|
|----------------------------|
|----------------------------|
|----------------------------|

|-------------------------------------------------------------------|
|-15b17___rp13-15b17___rp14-15--17b19--b19--b19--b19r17p15----15----|
|----------------------------------------------------------16-------|
|-------------------------------------------------------------------|
|-------------------------------------------------------------------|
|-------------------------------------------------------------------|

|---------------------------17--15--14--14--12-------------|
|-15b17___rp13-15b17___rp14--------------------15p12-------|
|----------------------------------------------------14v---|
|----------------------------------------------------------|
|----------------------------------------------------------|
|----------------------------------------------------------|

|----------------------------------------------------------------------|
|-15b17___-15b17___rp14-15---16r__15-----------------------------------|
|--------------------------------------15r__14-------------------------|
|------------------------------------------------12--14----------------|
|--------------------------------------------------------12--14--10v\--|
|----------------------------------------------------------------------|

2:06
|-------|---------------------------------|----|
|-------|---------------------------------|----|
|-------|---------------------------------|-0/-|
|-------|----------------------------5----|-/0-|
|-------|------------------5---6---7---7\-|----|
|-3-2-1-|-0-3---5---6---7-----------------| 2X |

|---------------------------------------------------|
|---------------------------------------------------|
|---------------------------------------------9-9\--|
|---------------------------------------------9-9\--|
|-3---4---5-------3---4---5-------3---4---5---7-7\--|
|---------------------------------------------------|

riff(0:25)

2:42
|-----2-------2-3p2-----2--------------------------|
|-----3-------3----3----3------------------3-------|
|-9---2---9---2-----9---2---9-------2222--2-42___--|
|-9---0---9---0-----9---0---9---0000000004----420--|
|-7-------7---------7-------7----------------------|
|-0-------0---------0-------0----------------------|


Am D G C G/B

|-------------------------------------|-----------------------------------|
|-------------------------------------|-------------------------___-------|
|-----5-5-5-5---------------___-------|-----5-5-5-5---7---5-----7p5---5-7-|
|-----5-5-5-5---------------7p5---5-7-|-----5-5-5-5---7---5---5-7p5---5-7-|
|-0-0-----------5---6---7-------7-----|-0-0---------0---------------7-----|
|-------------------------------------|-----------------------------------|

|-------5---------------5-------------------------------|
|-------5---------------5-------------------------------|
|---5-------------5-5----------------------------9-9\---|
|---5-------------5-5----------------------------9-9\---|
|-0---------0-0-0-0-------0-0-0-0-3----4----5----7-7\-|
|-------------------------------------------------------|

_________________________________________________
[Vous devez être inscrit et connecté pour voir cette image]

I won't be a rock star , I'LL BE A LEGEEEEEEEEEEEEEEEEEEEEEEEND ! [Vous devez être inscrit et connecté pour voir cette image]
Revenir en haut Aller en bas
simbaud
Administrateur de Queenland


Messages : 2695
Date d'inscription : 08/06/2013
Age : 21
Localisation : Queenland (rires)

MessageSujet: Re: Les tablatures de Sheer Heart Attack   Dim 9 Mar - 14:02


Lily Of The Valley


Piano arrangement: (clearly audible one)

Lily Of The Valley (Piano arrangement)

guitar 1(piano) I am
|-----5-------------|-----|-----5--------------------5----5---5--3----|
|-----5----5----6-8-|--o/-|-----5-------13-13--------5----5---5--3--5-|
|----------5----7-9-|--/--|----------5--14-14-10-10--5----5---5--4--5-|
|---7----7---7------|-/o--|---7----7----14-14-12-12-(7)--(7)--7--5--5-|
|-7-----------------|-----|-7--------------12-12-12-----------7--5--3-|
|-5-----------------|-----|-5--------------------10----5----5-5--3----|
|
|optional guitar:
|-----17------------|-----|-----17------5--5--5--5--5------------3---|
|-----17--17___r15--|-----|-----17------5--5--6--6--5------------3---|
|-------------------|-----|-------------5--5--7--7--5-let-ring---4---|
|-------------------|-----|-------------7--7--7--7--7------------5---|
|-------------------|-----|-------------5--5--5--5--7------------5---|
|-------------------|-----|-------------5--5--------5------------3---|

_________________________________________________
[Vous devez être inscrit et connecté pour voir cette image]

I won't be a rock star , I'LL BE A LEGEEEEEEEEEEEEEEEEEEEEEEEND ! [Vous devez être inscrit et connecté pour voir cette image]
Revenir en haut Aller en bas
simbaud
Administrateur de Queenland


Messages : 2695
Date d'inscription : 08/06/2013
Age : 21
Localisation : Queenland (rires)

MessageSujet: Re: Les tablatures de Sheer Heart Attack   Dim 9 Mar - 14:04


Now I'm Here


two guitars arranged for one
|-----------------|----|
|(3-3-3-3-3-3-3-3)|----|
|-2-2-2-2-2-2-2-2-|-0/-|
|-0-0-0-0-0-0-0-0-|-/0-|
|-----------------|----|
|-*-------*-------| 3x |


|-----------0---------------------|
|(3-3-3-3)--2---3-----------------|
|-2-2-2-2---0---2-2-2-2-2-2-2-2-2-|
|-0-0-0-0-0---0-0-0-0-0-0-0-0-0-0-|
|---------0-----------------------|
|-*-------*-------*-------*-------|


|-----------------------------------------------------------------|
|---------------------------------------------------------------2-|
|---------------------------------------------------------------3-|
|---------0-------0-0-0-0-0-0-0-0-0-0-0-0-0-0-0-0---------------0-|
|-3-3-3-3-3-3-3-3-2-2-2-2-2-2-2-2-1-1-1-1-1-1-1-1-1-1-1-1-1-3-0---|
|-*-------*-------*-------*-------*-------*-------*-------*-------|


|-----------------|----|
|(3-3-3-3-3-3-3-3)|----|
|-2-2-2-2-2-2-2-2-|-0/-|
|-0-0-0-0-0-0-0-0-|-/0-|
|-----------------|----|
|-*-------*-------| 3x |


|-----------0-----------------------------------------------------|
|(3-3-3-3)--2---3-------------------------------------------------|
|-2-2-2-2-2-2---2-2-2-2-2-2-2-2-2-------------------------------0-|
|-0-0-0-0-0---0-0-0-0-0-0-0-0-0-0--------(0-0-0-0)--------------0-|
|---------------------------------3-3-3-3-3-3-3-3-2-2-2-2-3-3-3---|
|-*-------*-------*-------*-------*-------*-------*-------*-------|



|-----------------------------------------------------------------|
|-----------2---3-----------------------------------------------2-|
|(0-0)------2---2-2-2-2-2-2-2-2-2---------0-0-0-0-0-0-0-0-0-0-0-2-|
|-0-0-0-0-0---0-0-0-0-0-0-0-0-0-0-0-0-0-0-0-0-0-0-0-0-0-0-0-0-0-2-|
|---------------------------------3-3-3-3-3-3-3-3-2-2-2-2-2-2-2-0-|
|-*-------*-------*-------*-------*-------*-------*-------*-----!-*



Riff: B
note the shifted accents
-!*-------*-------*-------*-------*-------*-------*-------*-------*
-2-------3-------2-------3-------4-------5-------4-------5--------|
-2-------0-------2-------0-------4-------4-------4-------4--------|
-2-------2-------2-------2-------4-------4-------4-------4--------|
-0-------0-------0-------0-------2-------2-------2-------2--------|
***-------------------------------------***---*---------***--*-*-**|
vocal accents on the bottom line. Note the return of the original
accents: sustain the syllable of "made" for three eighth instead of
just two!


|-*-------*-------*-------*-------*-------*-------*-------*-------*
|-----------------------------------------------------------------|
|-------------------------------7---7-------4---4-----------------|
|---------2-----4-----2---------7---7-7-----4---4-----------------|
|---------------2-----0---------5-x-5-7-----2---2-----------5-7---|
|-0---3-4---0-------------3-4-0-------5-----------2---5-6-7-----0-|


|-*---------------*---------------*
|---------------------------------|
|---9-----9-----9-------7---------|
|---9-----9-----9-------7---7---7-|
|---7-----7-----7-------5---7---7/|
0-------x-----x-------------5---5/|


Verse

|-*--------------*---------------*----------------*---------------*
|-----------------------------------------------------------------|
|-----------------------------------------------9-------7---------|
|------------------------------9---9-11---9-----9-------7---7---7-|
7/9-9-11---9---9----11---9-----7---7-7----7-----7-------5---7---7-|
5/7-7-7----7---7----7----7--------------------0-------------5---5-|

another guitar plays chords:
x2444x - x2445x , x7999x - x79910x, D(V), A, B-sus4...

|-*-------------------*----------------*----------------*---------------*
|-----------------------------------------------------------------0-----|
|-----------------------------------------------------------------1-----|
|------------------------------------9---9-11---9-----9-------7---2-----|
|-9---11---12-10-11-9---9-11---9-----7---7-7----7-----7-------7---2-0---|
|-7---7----9--------7---7-7----7-0-0-0---0-0----0-0-0---------5---0---3-|


A D B E C# F# D# G# E F# G (power chords, off-beat accents)


|--*-------*-------*-------*-------|
|-4-------5-------4-------5--------|
|-4-------4-------4-------4--------|
|-4-------4-------4-------4--------|
|-2-------2-------2-------2--------|
|----------------------------------|


repeat riff and verse with modified ending:
G C A D B E C# F# D E A



repeated chords: B(sus4) E A

first solo
|----------------------------------------|
|----------------------------------------|
|-7---8------------7---------------------|
|-------9p7-----------9--6--9----6--9----|
|-----------9----------------------------|
|-(hardly audible)-----------------------|


|-7--7--7--7--7---------------------------------------|
|-7--7--7--7--7--9--7---------------------------------|
|----9b-b--b-----9--8-----------------------_____-----|
|----------------------9--9--____-9--9------11b12-9---|
|----------------------------9/11-------11------------|
|-----------------------------------------------------|


|/7--7--7--7--------------------------------------------------------------------|
|/7--7--7--7--9--7----10--10--10--10--10--8--9--7--------9--7--7-----9--7--7----|
|-------------9--7----11--11--11--11--11--9--9--8--8-----9--7--8-----9--7--8----|
|-----------------------------------------------------9-----------9-----------9-|
|-------------------------------------------------------------------------------|
|-------------------------------------------------------------------------------|

|-------------------------------------------x-----------------|
|--/10--10--10-\--/10--10--10\--/10--10--10\--/10--10--10--12-|
|--/11--11--11-\8-/11--11--11\--/11--11--11\--/11--11--11--13-|
|-------------------------------------------------------------|
|-------------------------------------------------------------|
|-------------------------------------------------------------|

|-------------------------------------------------------------------------------|
|/12--12--12\--/10--10--10-----9-----------7--9b10r9---7---------------7b-------|
|/13--13--13\7-/11--11--11--8--9--7--8-----7--9b10r9---7--9--7---------7b-------|
|---------------------------------------9-----------------------9p7--------9--9-|
|-------------------------------------------------------------------9-----------|
|-------------------------------------------------------------------------------|

|-7--7-----------7-----------7-----------7--7--|
|-7--7--9--7-----7--9--7-----7--9--7-----7--7--|
|-------9--8--------9-h8--------9--8-----------|
|-------------9-----------9-----------9--------|
|----------------------------------------------|
|----------------------------------------------|-

|-7-/7--7--7-/7--7--7--_____--7--7--_____--7--7--_____--7--7--|
|-7-/7--7--7-/7--7--7--10b12-----7--10b12-----7--10b12-----7--|
|-------------------------------------------------------------|
|-------------------------------------------------------------|
|-------------------------------------------------------------|
|-------------------------------------------------------------|

|-_____--7----7---------7-----------------------------------|
|-10b12--b12--b12--b12-----9--7-----------------------------|
|--------------------------9--7-----------------------------|
|--------------------------------9--7-----------------------|
|--------------------------------------9--7--5--------------|
|-----------------------------------------------7--7--7--5--|


G C A D B E C# F# D

|---------------------------------|
|---------------------------------|
|-2-2-2-2-2-2-2-2-2-2-2-2-2-2-2-2-|
|-0-0-0-0-0-0-0-0-0-0-0-0-0-0-0-0-|
|---------------------------------|
|-*-------*-------*-------*-------|


|-----------0---------------------|
|-----------2---3-----------------|
|-2-2-2-2---0---2-----------------|
|-0-0-0-0-0---0---0-0-0-0-0-0-0-0-|
|---------------------------------|
|-*-------*-------*-------*-------|

|-----------------------------------------------------------------|
|-----------------------------------------------------------------|
|---------------------------------0-0-0-0-0-0-0-0-0-0-0-0-0-0-0-0-|
|-------------------------0-0-0-0-0-0-0-0-0-0-0-0-0-0-0-0-0-0-0-0-|
|-3-3-3-3-3-3-3-3-2-2-2-2-2-2-2-2-1-1-1-1-1-1-1-1-1-1-1-1-1-1-1-1-|
|-*-------*-------*-------*-------*-------*-------*-------*-------|


|---------------------------------|
|---------------------------------|
|---------------------------------|
|-2-2-2-2-2-2-2-2-2-2-2-2-2-2-2-2-|
|-0-0-0-0-0-0-0-0-0-0-0-0-0-0-0-0-|
|-*-------*-------*-------*-------|


repeat main riff


repeat solo riff ( B(sus4) E A ) seven times


Outro-solo


|*----------*------------*-----------*--------*----------*---|
|-/10-10-10-10-/10-10-10-10-10-10-10-10---9---7---/10-10-10--|
|-/11-11-11-11-/11-11-11-11-11-11-11-11---9-7-8---/11-11-11--|
|-----------------------------------------------9------------|
|------------------------------------------------------------|
|------------------------------------------------------------|


|------------------------------------/11-11-11-11-/11-11-11...|
|-10-10-10-/10-10-10-10-/10-10-10-10-/10-10-10-10-/10-10-10...|
|-11-11-11-/11-11-11-11-/11-11-11-11-/11-11-11-11-/11-11-11...|
|-------------------------------------------------------------|
|-------------------------------------------------------------|
|-------*------------*------------*------------*--------------|



|-...-11-11------------------------------------------|
|-...-10-10-9------7-7b-----7-7b-----7-7b-----7-7b---|
|-...-------9-7b---7-7b-----7-7b-----7-7b-----7-7b---|
|----------------9--------9--------9--------9--------|
|----------------------------------------------------|
|----------------------------------------------------|


|------------------------------------------*---|
|---9-7b-----9-7b-----9-7b-----9-7-------7-----|
|---9-7b-----9-7b-----9-7b-----9-7-___---7-----|
|-9--------9--------9--------9-----9p7-----9---|
|--------------------------------------9-------|
|----------------------------------------------|


*-------------------------------------------------------------------------------|
|-----7---7-7---------------9-------------7---7b----------7---7b---------7---7--|
|-----7---7-7----------7b---9-7-___-------7---7b----------7---7b---------7---7--|
9---9---9-----9-9v---9----9-----9p7-9---9-7---7b----9---9-7---7b----9----7---7--|
|-------------------------------------------------------------------------------|
|-------------------------------------------------------------------------------|

riff: B5-B6


|---5-5-5-5-7---7-----------------5-5-5-5-7---7---7--------------|
|---7-7-7-7-7---7---7-9-----------7-7-7-7-7---7---7-9------------|
|---------------------9-7-8-------------------------9-7-8--------|
|---------------------------7-----------------------------9-6----|
|----------------------------------------------------------------|
|-*--------------------------------------------------------------|

|--/12-12-12-12-12-12-12-11-11-12-12-11-11-9--9--|
|--/14-14-14-14-14-14-14-12-12-14-14-12-12-10-10-|
|------------------------------------------------|
|------------------------------------------------|
|------------------------------------------------|
|------------------------------------------------|

|-7-7------------------------------------------------------------------|
|-7-7-9-7-7-----7-----7-7-----7-7-----7-7-----7-7----7-7-----7-9br...--|
|-----9-7-8-----7-----7-7-----7-7-----7-7-----7-7----7-7-----7-9br...--|
|-----------9-7-7-----7-7-----7-7-----7-7-----7-7----7-7-----7---------|
|---------------9---9-------9-------9-------9------9-------9-----------|
|----------------------------------------------------------------------|

_________________________________________________
[Vous devez être inscrit et connecté pour voir cette image]

I won't be a rock star , I'LL BE A LEGEEEEEEEEEEEEEEEEEEEEEEEND ! [Vous devez être inscrit et connecté pour voir cette image]
Revenir en haut Aller en bas
simbaud
Administrateur de Queenland


Messages : 2695
Date d'inscription : 08/06/2013
Age : 21
Localisation : Queenland (rires)

MessageSujet: Re: Les tablatures de Sheer Heart Attack   Mar 24 Juin - 9:43

Stone Cold Crazy

|-------------------------------------------------------|
|-------------------------------------------------------|
|-------------------------------------------------------|
|-------------------------------------------------------|
|-feedback harmonics + tremolo dive --------------------|
|-<7>---------------------------------------------------|

* . . . * . . . * . . . * . . .
|-----------------------------------------------------------------|
|-----------------------------------------------------------------|
|---------------3-------------------------------------------------|
|---------------3-------------------------------------------------|
|---------------1-------------------------1-3-3-3---2---3---4---5-|
|-1-3-3-3-3-3-0-------------------1-3-3-3-------------------------|

* . . . * . . . * . . . * . . .
|-----------------------------------------------------------------|
|-----------------------------------------------------------------|
|---------------3-------------------------------------------------|
|---------------3-------------------------------------------------|
|---------------1-------------------------1-3-3-3---2---3---4---5-|
|-1-3-3-3-3-3-0-------------------1-3-3-3-------------------------|

* . . . * . . . * . . . * . . .
|-----------------------------------------------------------------|
|-----------------------------------------------------------------|
|---------------3-------------------------------------------------|
|---------------3-------------------------------------------------|
|---------------1-------------------------1-3-3-3---2---3---4---5-|
|-1-3-3-3-3-3-0-------------------1-3-3-3-------------------------|
| |
|-----------------------------------------------------------------|
|-----------------------------------------------------------------|
|---------------3-------------------------------------------------|
|-3h5-5-5-5-3-0-3-------------------------------------------------|
|---------------1-------------------------1-3-3-3---2---3---4---5-|
|---------------------------------1-3-3-3-------------------------|


* . . . * . . . * . . . * . . . *
|----------------------------------------------------------------------|
|----------------------------------------------------------------------|
|----------------------------------------------------------------------|
|-3h5-5-5-5-3-0--------------------------------------------------------|
|---------------1-------------------------1-3-3-3---2---3---4---5------|
|---------------------------------1-3-3-3-------------------------3\---|
| |
|----------------------------------------------------------------------|
|----------------------------------------------------------------------|
|-----------------------------------------3-5-5-5---4---5---6---7------|
|-3h5-5-5-5-3-0---------------3---3h5-5-5-------------------------5\---|
|---------------1---------3h5---5--------------------------------------|
|----------------------------------------------------------------------|

...


"... crazy ..."
* . . . * . . . * . . . * . . .
|-----------------------------------------------------------------|
|-----------------------------------------------------------------|
|-5-----------------------5p3-----5-------------------------------|
|-5-----------------------5p3-----5-------------------------------|
|-3-----------------------3-------3-------------------------------|
|-----------------------------------------------------------------|




* . . . * . . . * . . . * . . .
|-----------------------------------------------------------------|
|-----------------------------------------------------------------|
|---------------3-------------------------------------------------|
|---------------3-------------------------------------------------|
|---------------1-------------------------1-3-3-3---2---3---4---5-|
|-1-3-3-3-3-3-0-------------------1-3-3-3-------------------------|

* . . . * . . . * . . . * . . . * . . . *
|---------------------------------------------------------------------------------|
|---------------------------------------------------------------------------------|
|---------------3-----------------------------------------------------------------|
|---------------3-------------------------------------------------------5---7---8-9
|---------------1-------------------------1-3-3-3---2---3---4---5v----------------|
|-1-3-3-3-3-3-0-------------------1-3-3-3-----------------------------------------|


rhythm guitars behind the solo
* . . . * . . . * . . . * . . .
|------------------------------------------------------------------|
|------------------------------------------------------------------|
|-9----------------------------------------------------------------|
|-----------------4---------------4---------------4----------------|
|-----------------2---------------2---------------2----------------|
|------------------------------------------------------------------|

* . . . * . . . * . . . * . . .
|------------------------------------------------------------------|
|------------------------------------------------------------------|
|------------------------------------------------------------------|
|-4---------------4---------------9-----7--------------------------|
|-2---------------2---------------------------9-----7-----5--------|
|------------------------------------------------------------------|




* . . . * . . . * . . . * . . .
|-----------------------------------------------------------------|
|-----------------------------------------------------------------|
|---------------3-------------------------------------------------|
|---------------3-------------------------------------------------|
|---------------1-------------------------1-3-3-3---2---3---4---5-|
|-1-3-3-3-3-3-0-------------------1-3-3-3-------------------------|

* . . . * . . . * . . . * . . . *
|----------------------------------------------------------------------|
|----------------------------------------------------------------------|
|---------------3------------------------------------------------------|
|---------------3------------------------------------------------------|
|---------------1-------------------------1-3-3-3---2---3---4---5------|
|-1-3-3-3-3-3-0-------------------1-3-3-3-------------------------3\---|
| |
|----------------------------------------------------------------------|
|----------------------------------------------------------------------|
|---------------3-------------------------3h5-5-5---4---5---6---7------|
|---------------3-----------3-----3h5-5-5-------------------------5\---|
|---------------1-----3-3-5-----5--------------------------------------|
|-1-3-3-3-3-3-0--------------------------------------------------------|



* . . . * . . . * . . . * . . .
|-----------------------------------------------------------------|
|-----------------------------------------------------------5-----|
|-----------------------------------------------------------5-----|
|-5\--------------------------------------------------------5-----|
|-----------------------------------------------------------3-----|
|-3\----------------------------------------------x-x-x-x-x-------|

* . . . * . . . * . . . * . . .
|---------------------------------3-------------------------------|
|---------------------------------3-------------------------------|
|---------------------------------3-------------------------------|
|---------------------------------3-------------------------------|
|---------------------------------1-------------------------------|
|-----------------------------------------------------------------|
| |
|-----------------------------------------------------------------|
|-----------------------------------------------------------------|
|-------------------------------------?-?-------------------------|
|---------------------------------3-3-------------------?-?-?-----|
|-------------------------------------5-5---3---3---3---1-3-1-----|
|-------------------------------------------------------------3---|


"... crazy ..."
* . . . * . . . * . . . * . . . * . . .
|---------------------------------------------------------------------------------|
|-----------------------------------------------------------------3---------------|
|-5-----------------------5p3-----5-------------------------------3---------------|
|-5-----------------------5p3-----5-------------------------------3---------------|
|-3-----------------------3-------3 tremolo dive --------------1---------------|
|---------------------------------------------------------------------------------|


* . . . * . . . * . . .
|-------------------------------------------------|
|-4-------------------------2-2---4---------------|
|-4-------------------------2-2---4---------------|
|-4-------------------------2-2---4---------------|
|-2-------------------------------2---------------|
|-------------------------------------------------|



* . . . * . . . * . . . * . . . * . . .
|---------------------------------------------------------------------------------|
|---------------------------------------------------------------------------------|
|---------------------------------------------------------------------------------|
|-----------------------------------------7h9-9p7-9-----7-------------------------|
|---------0h2-----5-------5-/-9---9---------------------------9-----7-----5-------|
|-0h2-------------------------------------------------------------------------7---|

* . . . * . . . * . . . * . . .
|-----------------------------------------------------------------|
|---------------3-------------------------------3-----------------|
|---------------2-------------------------2-----2-----------------|
|---------------4---------------------------4---4-----------------|
|-0-2-2-2-2-2-2-2-----------------2-2-2-2-------2-----------------|
|-----------------------------------------------------------------|

* . . . * . . . * . . . * . . .
|-----------------------------------------------------------------|
|---------------3-------------------------------3-----------------|
|---------------2-------------------------------2-----------------|
|---------------4-------------------------------4-----------------|
|-0-2-2-2-2-2-2-2-----------------2-2-2-2-2-2-2-2-----------------|
|-----------------------------------------------------------------|

* . . . * . . . * . . . * . . .
|-----------------------------------------------------------------|
|---------------3-------------------------------------------------|
|---------------2-------------------------------------------------|
|---------------4-----------------9-----7-------------------------|
|-2-2-2-2-2-2-2-2-----------------------------9-----7-----5-------|
|-------------------------------------------------------------7---|

* . . . * . . . * . . . * . . .
|-----------------------------------------------------------------|
|-----------------------------------------------------------------|
|-------------------------------------------------------------2---|
|-------------------------------------------------------------2---|
|-2-2-2-2-2-2-2-2-2-2-2-2-2-2-2-2-2-2-2-2-2-2-2-2-2-2-2-2-2-2-----|
|-----------------------------------------------------------------|

* . . . * . . . * . . . * . . .
|-----------------------------------------------------------------|
|-----------------------------------------------------------------|
|-----------------------------------------------------------------|
|---------------------------------9-----7-------------------------|
|-2-2-2-2-2-2-2-2-2-2-2-2-2-2-2-2-------------9-----7-----5-------|
|-------------------------------------------------------------7---|
end of solo


* . . . * . . . * . . . * . . .
|-----------------------------------------------------------------|
|-----------------------------------------------------------------|
|---------------3-------------3-----------------------------------|
|---------------3-------------3-----------------------------------|
|---------------1-------------------------1-3-3-3---2---3---4---5-|
|-1-3-3-3-3-3-0-------------------1-3-3-3-------------------------|

* . . . * . . . * . . . * . . . *
|----------------------------------------------------------------------|
|----------------------------------------------------------------------|
|---------------3------------------------------------------------------|
|---------------3-------------------------------------------------5\---|gtr1
|---------------1-------------------------1-3-3-3---2---3---4---5------|
|-1-3-3-3-3-3-0-------------------1-3-3-3-------------------------3\---|gtr2


...


* . . . * . . . * . . . * . . .
|-------------------------------------------------------------------|
|-------------------------------------------------------------------|
|-------------------------------------------------------------------|
|---------------------------------------------------------------5---|
|-------------------------------------------------------------------|
|-------------------------------------------------------------------|
...-x-x-x-x-x-x-x-x-x-x-x-x-x-x-x-x-x-x-x-x-x-x-x-x-x-x-x-x-x-x-----|

* . . . * . . . * . . . * . . .
|-----------------------------------------------------------------|
|-----------------------------------------------------------------|
|-----------------------------------------------------------------|
|-----------------------------------------------------------------5
|---------------------------------5---------------------------5-5-5
|---------------------------------5---------------------------5-5-3
|-x-x-x-x-x-x-x-x-x-x-x-x-x-x-x-x-3---------------------------3-3-|

* . . . * . . . * . . . * . . . * . . . *
|---------------------------------------------------------------------------------------|
|---------------------------------------------------------------------------------------|
|---------------------------------------------------------------------------------------|
|---5-------5---------------5p3-----5---------------------------------------------------|
5-5-5-------5---------------5p3-----5-----------------------------------------------5---|
5-5-3-------3---------------3-------3-----------------------------------------------5---|
3-3---------------------------------------------------------------------------------3---|

end



guitar solo #1 (0:51)
* . . . * . . . * . . . *
|----------------------------------------------------|
|---------10b12v---------------b12r10p7--------------|
|---------------------------------------10p9p7---9p7-|
|----------------------------------------------9-----9
|----------------------------------------------------|
|----------------------------------------------------|

* . . . * . . . * . . . *
|-----------------------------------------------------|
|-------------------------------------------------7---|
7-----------------7---------------7---9p7---------7---|
|-9v----------7---7---------------7-------9v------7---|
|---------7h9---9---9\7-5-7p5-7/9---9-----------------|
|-----------------------------------------------------|


guitar solo #2 (1:23)
*
|-----------------delay on
|--------------------|
|-9b11---9b11---7----|
|--------------------|
|--------------------|
|--------------------|

* . . . * . . . * . . .
|--------------------------------------------10b12----|
|-10b12-------------------12r10p7---------------------|
|---------------------------------10p9p7-9p7----------|
|-----------------------------------------------------|
|-----------------------------------------------------|
|-----------------------------------------------------|

* . . . * . . . * . . . * . . . * . . . |----b12---12r10p7---------7-7---------------------------------------------------------------|
|------------------10b12-------b12_r10p7-10p7------------------------------------------------|
|-----------------------------------------------10p9p7-9p7-9b11---7--------------------------|
|-----------------------------------------------------------------------9------7-------------|
|------------------------------------------------------------------------------------9\/-----|
|--------------------------------------------------------------------------------------------|


|----------------------------------------------------------|
|----------------------------------------------------------|
|-12-------12--------13-------13------14--------15--------16
|----14p12----14p12-----15p12------15-----16p14-----17p15--|
|---------------------------!------------------------------|
|----------------------------------------------------------|

|------------------------------------------------------------------------------------------|
|------------!------------------------------------------------20b22__rb22___rb22___rb22v---|
16-------17-(16)------18------19p18----21p20----21----x------------------------------------|
|--18p16-------19p17-----x-18-------19-------19----20---20---------------------------------|
|------------------------------------------------------------------------------------------|
|------------------------------------------------------------------------------------------|
this last section of the solo looks anomalous tabbed (more or less) note by note.
Do not learn it note by note.


vocal harmony:

stone cold crazy you know
|-10----6b--b10-6b-5----3--|
|-11----8---b11-8--5----3--|
|-10----7---b10-7--5----4--|
|--------------------------|
|--------------------------|
|--------------------------|

_________________________________________________
[Vous devez être inscrit et connecté pour voir cette image]

I won't be a rock star , I'LL BE A LEGEEEEEEEEEEEEEEEEEEEEEEEND ! [Vous devez être inscrit et connecté pour voir cette image]
Revenir en haut Aller en bas
simbaud
Administrateur de Queenland


Messages : 2695
Date d'inscription : 08/06/2013
Age : 21
Localisation : Queenland (rires)

MessageSujet: Re: Les tablatures de Sheer Heart Attack   Mar 24 Juin - 9:44

Dear Friends

piano accompaniment arranged for classical guitar

1st Verse
* . . . * . . . * . . . * . . .
|-2---5---10-----9-7---5-----------5---10---14-----14-12---10----9-------|
|-3---7---10-------8---5---7-------7---7----10--------10---10-9-10-------|
|-2---7---11-------7---7-6-7-------7---7----11---------9----9----9-------|
|---------0----------------7--------------7-12--------11----9----7-------|
|-----------------10-9-7---5---------5-9-----------------------------0---|
D-0--------------------------------0-------------------------------------|

* . . . * . . . * . . . * . . .
|-2---0---3---2-------------------0---0---2---2---0---2---3-------|
|-3---3---3---3---3---3---3-------3---3---3---3---3---3---2-------|
|-2---2---4---2---4---2---4-------2---2---2---2---2---2---2-------|
|-0---------------5---4---5---2-----0---0---0---0-----------------|
|-----4---2---0-------------------------------------0---0-0-------|
D-----------------5---4---2---------------------------------------|

2nd Verse
* . . . * . . . * . . . * . . .
|----------10----------7---5-----------5---10---14-----14-12---10----9-------|
|-7---10---10----------8---5---7-------7---7----10--------10---10-9-10-------|
|-7----7---11----------7---7-6-7-------7---7----11---------9----9----9-------|
|-7------7-12-11-9-------------7--------------7-12--------11----9----7-------|
|---5--9-----------12-10-9-7---5---------5-9-----------------------------0---|
D-0--------------------------------0---0-------------------------------------|

* . . . * . . . * . . . * . . .
|-2---0---3---2---------------------------------------------------|
|-3---3---3---3---3---3---3-------2---2---0---2---0---3---3-------|
|-2---2---4---2---4---2---1-------2---2---2---2---0---4---2-------|
|-0---------------5---4---2---2---2---2---2---2---0---5---4-------|
|-----4---2---0---------------------0---0---0---0---------5-------|
D-----------------5---4---2-----------------------5-4-2-------0---|




_________________________________________________
[Vous devez être inscrit et connecté pour voir cette image]

I won't be a rock star , I'LL BE A LEGEEEEEEEEEEEEEEEEEEEEEEEND ! [Vous devez être inscrit et connecté pour voir cette image]
Revenir en haut Aller en bas
simbaud
Administrateur de Queenland


Messages : 2695
Date d'inscription : 08/06/2013
Age : 21
Localisation : Queenland (rires)

MessageSujet: Re: Les tablatures de Sheer Heart Attack   Mar 24 Juin - 9:45

Misfire

intro
|-3--3-3--0--0-0-------------------------------------|
|-3--3-3--1--1-1-------------------------------------|
|-0--0-0--0--0-0-------------------------------------|
|-0--0-0--2--2-2-------------------------------------|
|-2--2-2--3--3-3-------------------------------------|
|-3--3-3---------------------------------------------|

chorus 00:19
|-0-0--0-0--0-0--0-0--0-0--0-0--0-0------------------------|
|-0-0--0-0--0-0--0-0--0-0--2-2--1-1------------------------|
|-0-0--0-0--0-0--0-0--0-0--2-2--0-0----2 times then--------|
|-2-2--2-2--2-2--2-2--2-2--2-2--2-2----back to intro-------|
|-2-2--2-2--2-2--2-2--2-2--0-0--3-3------------------------|
|----------------------------------------------------------|


solo 00:38
|-3--------3-----------------------------------------------|
|---4----4---4--3-----2----4-----4-------------0---2--1--4-|
|-----3-----------3----------5---------5---------3---------|
|-------------------3----------6---------6--6--------------|
|----------------------------------------------------------|
|----------------------------------------------------------|

_________________________________________________
[Vous devez être inscrit et connecté pour voir cette image]

I won't be a rock star , I'LL BE A LEGEEEEEEEEEEEEEEEEEEEEEEEND ! [Vous devez être inscrit et connecté pour voir cette image]
Revenir en haut Aller en bas
simbaud
Administrateur de Queenland


Messages : 2695
Date d'inscription : 08/06/2013
Age : 21
Localisation : Queenland (rires)

MessageSujet: Re: Les tablatures de Sheer Heart Attack   Mar 24 Juin - 9:46

Bring Back That Leroy Brown

ukelele TAB sketch
A|-3-3---2---2-0---|-3-3-3-2---2-0---|-3-------------------2-------2---|
E|-3-3-3-1-------3-|-3-3-3-1---1-1-3-|-3-------------------3-------3---|
C|-4-4---2-------4-|-4-4-4-2---2-2-4-|-4-------------------3-------3---|
G|-----------------|-----------------|---------------------------------|

|-3-3---2---2-0---|-3-3-3-2---2-0---|-3---3---3-3---3-3---2-----2-2---|
|-3-3-3-1-------3-|-3-3-3-1---1-1-3-|-3---3---2-1---3-3---3-----3-3---|
|-4-4---2-------4-|-4-4-4-2---2-2-4-|-4---4---3-2---4-4---3-----3-3---|
|-----------------|-----------------|---------------5-5---------------|

|-3---3---3---3---2---2---2---2---3-3-3-3---3-3---0------5-----3---|
|-3---3---3---3---3---3---3---3---3-3-3-3---3-3---0------4-----5---|
|-4---4---4---4---3---3---3---3---4-4-4-4---4-4---1------5-----4---|
|------------------------------------------------------------------|

|-3---3---3-3-3-3-3---3---3-3-3---|-3---3---3---3---3-3-3-3-3-3-3-|
|-3---3---3-3-3-3-5---5---5-5-5---|-0---0---1---1---2-2-2-2-3-3-3-|
|-4---4---4-4-4-4-5---5---5-5-5---|-0---0---2---2---3-3-3-3-4-4-4-|
|---------------------------------|-------------------------------|

|-3--3---3-3-3---2-2-2-2---2-2-2-3-------3---3---2-2-2-2-1---1-0---0---3----|
|-3--3---3-3-3---0-0-0-0---0-0-0-5-------3---3---2-2-2-2-1---1-0---0---3----|
|-4--4---4-4-4---2-2-2-2---2-2-2-4-------4---4---3-3-3-3-2---2-1---1---4----|
|-*-------------------------------------------------------------------------|

solo
|-3-----------3-----------3----------|
|---5-----------3h5---------3-----3--|
|-------5-----------6p3---------4----|
|---------7--------------------------|


|-3---2---3--------|
|-1---3---4---5----|
|-5---4---3---2----|
|------------------|

solo 2
|--6---6---6-----7---7-7---7--xxxx9---9-7----9-9\--8-7-..-------|
|--8---8---8-8---9---9-9---9-9xxxx8---8-8-10-8-8\--7-7----------|
|--9---9---9---9-7---7-7---7--xxxx9---9-9----9-9\--7-7----------|
|--10--10--10--10----9-9---9--xxxx------------------------------|
Tr PD. 23 juli '97

guitar solo
|------------------------------|
|-------8----------------------|
|-7-8-9---11p10p8-10-8---------|
|----------------------10-10---|
|------------------------------|
|------------------------------|

|-----------------------------------------------------------15-17---15-13---15---|
|-----------------------------------------------12/13-15/17----------------------|
|---------------------------------------12-14------------------------------------|
|-------------------------10/12-12h14--------------------------------------------|
|-----0-----------10-12----------------------------------------------------------|
|-8-------10/12------------------------------------------------------------------|

|-15/-17---15------------------15-17---15-------------------------------------|
|-------------17\15-13-15/17--------------17\15-13-15-13-15p13-------13---(0)-|
|--------------------------------------------------------------14p12----------|
|-----------------------------------------------------------------------------|
|-----------------------------------------------------------------------------|
|-----------------------------------------------------------------------------|

|--------------------------------------|
|--------------15-15b17---b17___rp13---|
|-14---14vv----------------------------|
|--------------------------------------|
|--------------------------------------|
|--------------------------------------|

_________________________________________________
[Vous devez être inscrit et connecté pour voir cette image]

I won't be a rock star , I'LL BE A LEGEEEEEEEEEEEEEEEEEEEEEEEND ! [Vous devez être inscrit et connecté pour voir cette image]
Revenir en haut Aller en bas
simbaud
Administrateur de Queenland


Messages : 2695
Date d'inscription : 08/06/2013
Age : 21
Localisation : Queenland (rires)

MessageSujet: Re: Les tablatures de Sheer Heart Attack   Mar 24 Juin - 9:49

She Makes Me (Stormtrooper In Stilettos)

|-2-2-2-0----|
|-3-3-3-2----|
|-2-2-2-2----|
|-0-0-0-2----|
|-------0----|
|------------|

I love
She makes me
She is my heart
xx0232 - xx0013, xx0013 - x55433, x5543x - x02220 xx0232 - x02220
She is my love She is my love

I know
I'm jealous of her
She make me need
She is my love

E

A E A
Who knows who she'll make me

As I lie in her cocoon
-0---0---2---2---2---2---2---2---2---2---
-2---2---0---0---2---2---0---2---3-232-3-
-1---0---2---2---2---2---2---2---2---2---
-2---2---0---0---0---0---0---0---0---0---
-0---0-----------------------------------
-----------------------------------------

A C#7 F#m F#m/E B/D# (x6444x)
And the world will surely heal my ills
D
I'm warm and terrified
D - A
She makes me so

I know the day I leave her
I'll love her still
She is my love
She is my love

She knows where my dreams will end
I'll follow as they grow
But the world will know how long I'll take
And if I'm very slow she makes me so

She is my love
2:44 2:56 3:3 3:8 3:14
|-5-5-5-3---| |-3-3-3-1---| |-3-3-3-1---| |-3-3-3-0---| |-5-5-5-0---|
|-7-7-7-5---| |-5-5-5-3---| |-5-5-5-3---| |-5-5-5-1---| |-3-3-3-1---|
|-7-7-7-5---| |-5-5-5-3---| |-4-4-4-2---| |-4-4-4-2---| |-4-4-4-2---|
|-0-0-0-0---| |-0-0-0-0---| |-0-0-0-0---| |-0-0-0-0---| |-3-3-3-0---|
|-----------| |-----------| |-----------| |-----------| |-----------|
|-----------| |-----------| |-----------| |-----------| |-----------|

3:21 3:24 3:30
|-----------| |-0-0-0-0---| |-0-0-0-0---|
|-3-3-3-5---| |-1-1-1-0---| |-3-3-3-5---|
|-3-3-3-5---| |-2-2-2-0---| |-4-4-4-5---|
|-3-3-3-5---| |-3-3-3-0---| |-3-3-3-5---|
|-----------| |-----------| |-----------|
|-----------| |-----------| |-----------|...

_________________________________________________
[Vous devez être inscrit et connecté pour voir cette image]

I won't be a rock star , I'LL BE A LEGEEEEEEEEEEEEEEEEEEEEEEEND ! [Vous devez être inscrit et connecté pour voir cette image]
Revenir en haut Aller en bas
simbaud
Administrateur de Queenland


Messages : 2695
Date d'inscription : 08/06/2013
Age : 21
Localisation : Queenland (rires)

MessageSujet: Re: Les tablatures de Sheer Heart Attack   Mar 24 Juin - 9:51

In The Lap Of The Gods...Revisited

32"
|-------2-----------------------------------------------------------------2--|
|-2-3-2-3-------------------------2----------------------------------2----3--|
|-2-2-2-2-------------------------2----------------------------------2----2--|
|-2-2-2-0------0------------------2---7------------------------------2----0--|
|-0-0-0-----3----2---7---5--7-4---0---5---4--5-7---6--7-/10-----10-5\0-------|
|-----------------------------------------5----------------------------------|

1'25"
|-----------2----------------------------------------------------------------|
|-22--2-22--3-------------------------2-----------------------------------2--|
|-22--2-22--2-------------------------2-----------------------------------2--|
|-22--2-22--0------0------------------2--(7)------------------------------2--|
|-00--0-00------3----2---7---5--7-4--\0---5---4v--5-7---6--7-/10-----10-5\0--|
|--------------------------------------------(5)-----------------------------|
...







Version Live At Wembley '86 :

|--------------------|->2-------2-------5-------5----|------5-|
|---3---3---3---3----|-<3-------3-------8-------8----|------8-|
|--2-2-2-2-2-2-2-----|->2------(2)------7------------|-0/---7-|
|-0---0---0---0--...-|-(0)---------------------------|-/0-----|
|--------------------|-------------------------------|---...--|
|--------------------|-------------------------------|--------|

|-2-------22--------------------------------------5--------------|
|-3------(22)-----8-------8---------------3-------8-------8-7----|
|-2-------x-------7---------7-------------2-------7-------7---7--|
|-0---------------------------7---0-----------------------0------|
|----------------------------------------------------------------|
|----------------------------------------------------------------|

|-0----------------------------------------------|
|-0-----0-----------0---------0-----0--------0---|
|-0-------0-----------0-----0-----0-------0------|
|-2---------2-1---------2-1-----0-------2--------|
|-2-----------------------------------4----------|
|-0----------------------------------------------|

|------2-x----------------------0--|
|----3---3-------33-------33----0--|
|---2------------------------------|
|-0-----------0---------0-------2--|
|-------------------------------2--|
|-------------------------------0--|

Chorus:
|-------------2-------------------------------------|
|-2-2---2-2---3-----------------------------------2-|
|-2-2---2-2---2-----------------------------------2-|
|-2-2---2-2---0-----------------------------------2-|
|-0-0---0-0---------3---5-2-----7-----5-----75-4--0-|
|---------------------------------------------------|
F.B.
|-------------------------------------|-------------|-------------------------|
|-------------------------------------|-------------|-----2-2---2-2---2-2..-2-|
|-------------------------------------|-0//---------|-----2-2---2-2---2-2..-2-|
|-------------------------------------|-//0-with----|-----2-2---2-2---2-2..-2-|
|-5---4---5--6/7----6---7-10------5\--|-----more----|-...-0-0---0-0---0-0..-0-|
|-------------------------------------|-2x--texture-|-------------------------|

Solo:
|----------------------------------------|
|-------------------------------------2--|
|-7v----5---7-4----b12-11-9---6--7b9--2--|
|-------------------------------------2--|
|-------------------------------------0--|
|----------------------------------------|

|------------------------------------------------------------------|
|-7b--5v--7v-8vv----7---8-(10)b12--12r11p10-8r7p5-3h5---15b17v--15-|
|------------------------------------------------------------------|
|------------------------------------------------------------------|
|------------------------------------------------------------------|
|------------------------------------------------------------------|

_________________________________________________
[Vous devez être inscrit et connecté pour voir cette image]

I won't be a rock star , I'LL BE A LEGEEEEEEEEEEEEEEEEEEEEEEEND ! [Vous devez être inscrit et connecté pour voir cette image]
Revenir en haut Aller en bas
Contenu sponsorisé




MessageSujet: Re: Les tablatures de Sheer Heart Attack   Aujourd'hui à 10:28

Revenir en haut Aller en bas
 
Les tablatures de Sheer Heart Attack
Voir le sujet précédent Voir le sujet suivant Revenir en haut 
Page 1 sur 1
 Sujets similaires
-
» Sheer Heart Attack
» Editeur de tablatures et d'accords en ligne
» [Fraispertuis City 2009] Pirates Attack
» Recueil tablatures Son House
» Heart, Nouvel album

Permission de ce forum:Vous ne pouvez pas répondre aux sujets dans ce forum
Queenland - Le forum :: Queen :: Leurs Albums ... :: Sheer Heart Attack-
Sauter vers: